[X]

Intro  
Am                  F                  C                  Em       
e|----------------|----------------|----------------|----------------|    
B|---3--1---0-----|------1-------1-|------1-------3-|------0-------1-|    
G|--2-----------2-|---2------2-----|--0-------0-----|--0-------0-----|    
D|----------------|----------------|----------------|----------------|    
A|0---0---0---0---|----------------|3---3---3---3---|----------------|    
E|----------------|1---1---1---1---|----------------|0---0---0---0---|    

        Am     
I wanna start this out and say  
        F     
I gotta get it off my chest  
       C     
Got no anger, got no malice  
       Em     
Just a little bit of regret  
       Am     
Know nobody else will tell you  
                F     
So there"s some things I gotta say  
      C     
Gonna jot it down and then get it out  
         Em     
And then I"ll be on my way  

               Am                                F     
No, you"re not half the man you think that you are  
              C                                   Em     
And you can"t fill the hole inside of you with money, drugs, and cars  
       Am                        F     
I"m so glad I never ever had a baby with you  
                 C                                        Em     
"Cause you can"t love nothing unless there"s something in it for you  


              Am                 F     
Oh, I feel so sorry, I feel so sad  
           C                             Em     
I tried to help you, it just made you mad  
             Am                      F     
And I had no warning about who you are  
                C     
I"m just glad I made it out without breaking down  
         Em     
And then ran so fucking far  
               Am                     F     
That you would never ever touch me again  
               C     
Won"t see your alligator tears  
                 Em     
"Cause, no, I"ve had enough of them  



Am         F         C         Em       


Verse 2    
       Am     
Let me start this off by saying  
         F     
I really meant well from the start  
       C     
Take a broken man right in my hands  
             Em     
And then put back all his parts  



               Am                                F     
But you"re not half the man you think that you are  
              C                                   Em     
And you can"t fill the hole inside of you with money, girls, and cars  
       Am                        F     
I"m so glad I never ever had a baby with you  
                 C                                        Em     
"Cause you can"t love nothing unless there"s something in it for you  


              Am     
Oh, I feel so sorry (I feel so sorry)  
          F     
I feel so sad (I feel so sad)  
           C     
I tried to help you (I tried to help you)  
                 Em     
It just made you mad  
             Am     
And I had no warning (I had no warning)  
              F     
About who you are (About who you are)  
            C                                Em     
Just glad I made it out without breaking down  
              Am     
Oh, I feel so sorry (I feel so sorry)  
          F     
I feel so sad (I feel so sad)  
           C     
I tried to help you (I tried to help you)  
                 Em     
It just made you mad  
             Am     
And I had no warning (I had no warning)  
           F     
About who you are (About who you are)  
          C        Em     
"Bout who you are  

Am     
Hey  
F     
Hey  
C     
Hey  
Em     
Hey  
     (x2)  


                  Am                                F     
"Cause you"re not half the man you think that you are  
              C                                   Em     
And you can"t fill the hole inside of you with money, drugs, and cars  
       Am                        F     
I"m so glad I never ever had a baby with you  
                 C                                        Em     
"Cause you can"t love nothing unless there"s something in it for you  

Am            F     
   I feel so sad  
                C     
   You should be sad  
               Em     
   You should be  
              Am     
   You should be sad  
              F     
   You should be  
               C     
   You should be  
               Em     
   You should be  

Am         F         C         Em       
Ooh...  



  Am     
e|15\-------------|    
B|----------------|    
G|----------------|    
D|----------------|    
A|----------------|    
E|----------------|    


  Em          Am                 F                  C                 Em                  Am         
e|--------|----------------|----------------|----------------|----------------|----------------|    
B|--------|----------------|----------------|----------------|----------------|----------------|    
G|--------|------5---------|------2---------|------9b--------|----------------|----------------|    
D|--------|----------------|----------------|----------------|------5--------/|7---------------|    
A|--------|----------------|----------------|----------------|----------------|----------------|    
E|----0/--|5-----------5\--|1-----------1/--|8-----------8\--|0---------------|----------------|  



-
Good
-
Bad
-
Votes
286
Views
| Good! | Bad!

Sponsored Game Streamer