[X]


No estaba asi que... saaapee 
Los acordes mayoritariamente si tocan con la electrica haganlos con cejilla 
como esta en el disco sino en criolla queda mejor con acordes basicos. 

RIFF 1: 
e|--------------------------------------------3-2-3-|  
B|-------------------3-2-3--3h5-5-5-5-3---3-5-------|  
G|-2h4-4-4-4-2---2-4--------------------5-----------|  
D|-------------5------------------------------------|  
A|--------------------------------------------------|  
E|--------------------------------------------------|  

e|----------------------------------------------------|  
B|-5h7-7-7-5---7--3h5-5-5---5--3-------3--4-------7---| 
G|-----------7------------5------5-4-5------5-4-5-----|  
D|----------------------------------------------------|  
A|----------------------------------------------------|  
E|----------------------------------------------------|  

MIm         RE           DO          LAm      
Sombra de perro fiel, nunca te dejan a pie 
SOL        DO                RE     
Siempre saben lo que querés 
SI7    
aunque vos te olvidés 

MIm          RE    
Te dicen dónde estás 
DO         LAm    
y dónde vas a estar 
SOL          DO           RE          SI7      
No vaya a ser que no escuchés (y después patinés) 

MIm          RE    
Son toda tu verdad 
DO           LAm    
sos lo que ellos son 
SOL        DO                RE     
Sos la mitad de lo que dicen 
SI7    
y el doble de lo que no 

MIm          RE    
Huelen tu malestar 
DO           LAm    
ladran si lo negás 
SOL    
Y aunque no suene bien 
DO    
aunque sean chabones 
RE                 SI7               DO7     
a veces los amás más que a tu mujer 


ESTRIBILLO: 

LA7           SOL7    
Son mis gomías 
RE7                SI7    
la razón de mi estadía 
MIm    RE     DO       SOL         LAm    SOL  LAmdim       
en  esta mierda que hemos dado en  llamar 

    MIm    RE   DO     LAm      
LA  vidaaa uhhh uhhh uhhh 
RE    
LA   vida  
DO    
Viene y se va 
SOL        SI7    
LA   vida  

MIm       RE        DO     LAm      
Mis gomíaaas  uhhh uhh uhhh 
RE7    
siempre están 
DO7    
nunca se van 
SOL7                 SI7    
del Big Bang a la eternidad 

RIFF 2: 
e|----------------------------------------|  
B|------------8---------------------------|  
G|------------7---------------------------| (x4)  
D|-2-2-0-0----6---2-2-0-0-----0-1---------|  
A|---------4--7-----------4-4-------------|  
E|----------------------------------------|  

MIm       RE             DO           LAm      
Un pedazo de cuore, una gamba pal trote 
SOL         DO           RE     
Son piqueteros del dolor 
SI7    
comida pa tu motor 

MIm      RE                  DO       LAm      
Saben que vos sabés que ellos saben también 
SOL         DO          RE           SI7      
todo lo que vos no querés que ellos sepan que sabés 

MIm          RE    
Son toda tu verdad 
DO           LAm    
sos lo que ellos son 
SOL        DO                RE     
Sos la mitad de lo que dicen 
SI7    
y el doble de lo que no 

MIm          RE    
Huelen tu malestar 
DO           LAm    
ladran si lo negás 
SOL    
Y aunque no suene bien 
DO    
aunque sean chabones 
RE                 SI7               DO7     
a veces los amás más que a tu mujer 

ESTRIBILLO: 

LA7           SOL7    
Son mis gomías 
RE7                SI7    
la razón de mi estadía 
MIm    RE     DO       SOL         LAm    SOL  LAmdim       
en  esta mierda que hemos dado en  llamar 

    MIm    RE   DO     LAm      
LA  vidaaa uhhh uhhh uhhh 
RE    
LA   vida  
DO    
Viene y se va 
SOL        SI7    
LA   vida  

MIm       RE        DO     LAm      
Mis gomíaaas  uhhh uhh uhhh 
RE7    
siempre están 
DO7    
nunca se van 
SOL7                 SI7    
del Big Bang a la eternidad 


(RIFF 2 Y A IMPROVISAR) 
Gracias chabales y no lo olviden... no me juzguen solo es un consejo... 




1
Good
-
Bad
1
Votes
79
Views
| Good! | Bad!

Sponsored Game Streamer