[X]


Este es el riff de La    intro que se repite durante La    canción 
en algunas partes. 
Las notas entre paréntesis deben seguir sonando en el tiempo indicado, esto 
quiere decir que dejamos el dedo presionado en dicha nota, en un pentagrama 
es una ligadura. Suena mejor así en guitarra acústica. 
Si    se les complica  La   lectura, omitan las notas entre paréntesis y listo, 
suena de todos modos. 

s=deslizar el dedo entre los trastes.1s2==deslizar desde el traste 1 al 2 
h=hammer on, martillar La    cuerda 



e|------------6h7-7---------------6h7-7--------10-------------------| 
B|------8-(8)--------------8--(8)--------8s12-(12)-12s8-8--8s10-----| 
G|-7s9-(9)-9----------7s9-(9)--9---------------------------------9--| 
D|------------------------------------------------------------------| 
A|------------------------------------------------------------------| 
E|------------------------------------------------------------------| 

e|------------------------------------------------------------------| 
B|------8-(8)--8h10-10--------8--(8)--8h10-10--------8--(8)---------| 
G|-7s9-(9)-9----(9)------7s9-(9)--9----(9)------7s9-(9)-9s7-7-------| 
D|------------------------------------------------------------------| 
A|------------------------------------------------------------------| 
E|------------------------------------------------------------------| 

En La    intro se repite dos veces 

Saludos y suerte! 


1
Good
-
Bad
1
Votes
539
Views
| Good! | Bad!

Sponsored Game Streamer