[X]


              Dm          G7            C     F         Bm7b5      E7           Am         
 ♠ 
E||---------------5--7--7--5-----5---------------------1-0--------------|  
B||---------5--6--6-----8----8-6---8-----------------3------3-1-0-3-1---|  
G||---4-5-7----7-------------------9----4-5-7-5-4-4------1----------2---|  
D||-7------------------------------------------------3--------------2---|  
A||---------------------------------------------------------------------|  
E||---------------------------------------------------------------------|  


              Dm          G7            C     F           Bm7b5        E7        Am         

E||---------------5--7--7--5-----5-----------------1--------0-------5---|  
B||---------5--6--6-----8----8-6---8---------------3--------3-------5---|  
G||---4-5-7----7-------------------9----4-5-7-5-4--2--------1-------5---|  
D||-7----------------------------------------------3--------2-----------|  
A||-----------------------------------------------------------------0---|  
E||---------------------------------------------------------------------|  


-♪♫♫ 

Am                 F   E     

Vengo desde muy lejos 
Dm        G7             C    (Em7b5 A7)    
Voy huyendole a la luna 
Dm       G7                 C     
Me persigue y me conjura 
      A7                 Dm    
Porque le he robado un beso 
       G7               C    
Del jardín de sus locuras 
F          Bm7b5    E7     
La pobre luna.. 

Am                   F    E     
Vengo tras la estrellas 
Dm        G7               C    (Em7b5 A7)    
Que en tus ojazos perduran 
Dm        G7              C     
Dueñas son de mi fortuna 
          A7              Dm    
Y me han robado aquel beso 
        G7              C    
Que yo le robe a la luna 
F          Bm7b5    E7     
La pobre luna... 


♣ 
 A                       C#7    
Traigo la miel de un beso 
            F#m                  G    F#7     
Que me ha llenado el alma de brumas 
Bm7                  G    
Ando buscando estrellas 
        E7                Em7   F#7     
Para juntarlas una por una. 
Dmaj7       Dm7b5            A     
En el jardín de tu cintura 
F#7                 Bm7    
Cuando te vuelva amar 
E7        Em7   F#7     
Bajo la luna 
Dmaj7       Dm7b5            A     
En el jardín de tu cintura 
F#7                 Bm7    
Cuando te vuelva amar 
E7          A    
Bajo la luna 


♠ 
♣ 


        ↓   E  - A - D - G - B -E    ↓       
________↓________________↓________ 
Bm7b5   ↓   ▀-2-3-2-3-▀  ↓ 
Em7b5   ↓   ▀-▀-2-3-3-3  ↓ 
Dm7b5   ↓   ▀-▀-0-1-1-1  ↓ 
Dmaj7   ↓   ▀-▀-0-2-2-2  ↓ 




2
Good
-
Bad
2
Votes
89
Views
| Good! | Bad!