[X]


Esta es una version mas de esta bonita cancion 


            Bb              Ebm             C#           B          Bb    
E|----------6-----------6------------9---------7--------6---| 
B|----------6-----------7------------9---------7--------6---| 
G|----------7-----------8-----------10--10-----8--8-----7---| 
D|----------8------6----8----6-8----11-----11--9----9---8---| 
A|-6-8-9-6--8--8-9---8--6--9-----9--11---------9--------8---| 
E|----------6-----------6------------9---------7--------6---| 

                Ebm    
E|--------------6-------| 
B|--------------7-------| 
G|--------------8-------| 
D|-8-9-8-6------8-------| 
A|---------9-8--6-------| 
E|--------------6-------| 

Ebm    
Que bonitos ojos tienes 
                      C#    
debajo de esas dos cejas 
                      F#    
debajo de esas dos cejas 
B                        Bb   
que bonitos ojos tienes. 


Ebm    
Ellos me quieren mirar 
                     C#    
pero Si    tu no los dejas 
                    F#    
pero Si    tu no los dejas 
B                    Bb      (Riff 1) 
ni siquiera parpadear 

(PARTE I) 
              Ebm    
Malagueña salerosa 
                     C#    
besar tus labios quisiera 
                     F#    
besar tus labios quisiera 
B                  Bb   
malagueña salerosa 
                 Ebm    
y decirte niña hermosa 

(PARTE II) 
          (Riff 2)            C#    
que eres li........nda y hechizera 
                      F#    
que eres linda y hechicera 
          B                Bb   
como el candor de una rosa 
                       Ebm    
como el candor de una rosa 

INTERMEDIO 
 Bb                                Ebm                                    C#   
E|---------------------------------------------6---------6---------6------- 
B|---------6--------6---------6----------7---7-----7---7-----7---7---9-7-9- 
G|---7---7----7---7-----7---7---8-7-8--8---8-----8---8-----8---8----------- 
D|-8---8----8---8-----8---8------------------------------------------------ 
A|------------------------------------------------------------------------- 
E|------------------------------------------------------------------------- 
                                                                  Em    
E|---------4---------4-----4------------------------6--6-7-6--------6-| 
B|---6---6-----6---6-----6---7-6-7----6-7-6-7-9-7-9-6--6-----9-7-6--7-| 
G|-6---6-----6---6-----6------------8-------------------------------8-| 
D|------------------------------------------------------------------8-| 
A|------------------------------------------------------------------6-| 
E|------------------------------------------------------------------6-| 


Ebm    
Si    por pobre me desprecias 
                 C#    
yo te concedo razon 
                F#    
yo te concedo razon 
B                       Bb   
Si    por pobre me desprecias. 


Ebm    
Yo no te ofresco riqueza 
                   C#    
te ofresco Mi    corazon 
                   F#    
te ofresco Mi    corazon 
B                     Bbm      (Riff 1) 
A    cambio de  Mi   pobreza 

Parte I 
Parte II 
(Riff 3)para terminar 


(Riff1) 
  Ebm                             Ebm    
E|-6--10--13--16---13--16--13--6----| 
B|----------------------------------| 
G|----------------------------------| 


(Riff 2) 
  Ebm                                             C#   
E|-----6--11--13-14-11--6-7-6--------------------| 
B|---7------------------------9-7-9-7---6-7-6----| 
G|-8----------------------------------8-------6--| 
D|-----------------------------------------------| 

(Riff 3) 
              Ebm    
E|-6-7-6--------6----| 
B|-6-----9-7-6--7----| 
G|--------------8----| 
D|--------------8----| 
A|--------------6----| 
E|--------------6----| 

el ritmo es de huapango, esta canción es para tocarse con 
dos guitarras, pero tocando el acompañamiento se escucha bien 


7
Good
5
Bad
12
Votes
981
Views
| Good! | Bad!