[X]


Intro -   
A  ,  Dm    

e|---------------------------------------|------------------------|  
b|---5--------6--------8---------10------|-----15----14------------|  
g|------6--------7---------9-----10-----:|------------------------|  
D|---------------------------------------|-----------------------|  
A|---------------------------------------|-----------------------|  
E|---------------------------------------|-----------------------|  

A         Dm    
un año mas 
A                        Dm    
que voy llevando sobre mi 
A          Dm           A             Dm      
emancipando los caminos que escogí 

Dm           G           C              Dm       
y los demás se olvidaron de existir 
   G                   C               Dm     
y los demás se intentaron destruir 

A          Dm    
y me perdí  
           A                Dm    
en la constancia de avanzar 
A            Dm    
no me senté 
A                          Dm    
ni un instante a descansar  

 Dm         G            C               Dm       
y los demás me dejaron prescindir  
          G              C                  Dm     
de los demás por que no hay que desistir  
          G             C            Asus         A      
si los demás se olvidaron como  fue el ayer 
     Asus         F         E     
y  como hay que sobrevivir...... 

Solo: 

e|-------------------------------------------------------------------------------|  
b|----------2--3----5---5b6--6b5--5----3-2~~--------------2--3---5---------------| 
g|---2h4---------------------------------------------2h4-------------------------| 
D|-------------------------------------------------------------------------------|  
A|-------------------------------------------------------------------------------|  
E|-------------------------------------------------------------------------------|  


e|--8/10-----10/12-------12/13------13/15--15~-------14/13-----12----------------------| 
b|-------------------------------------------------------------------------------------|  
g|-------------------------------------------------------------------------------------|  
D|-------------------------------------------------------------------------------------|  
A|-------------------------------------------------------------------------------------|  
E|-------------------------------------------------------------------------------------|  


e|----12/17--17----15----13--13/12-12-----13--12-------12/10-----10--------------------| 
b|-------------------------------------------------------------------------------------|  
g|-------------------------------------------------------------------------------------|  
D|-------------------------------------------------------------------------------------|  
A|-------------------------------------------------------------------------------------|  
E|-------------------------------------------------------------------------------------|  

          (right hand tap) 
e|---13p10h12p10------------------------------------------------------------------------------------------|  
b|-----------------------------12p10----------------------------------12---10h12p10---------10------------| 
g|-------------------------------------------12--10---10/12-------------------------------12---------12---|  
D|--------------------------------------------------------------------------------------------------------|  
A|--------------------------------------------------------------------------------------------------------|  
E|--------------------------------------------------------------------------------------------------------|  


e|-------------------------------------------------------------------------------------------------|  
b|---------------------------------------------------------------------15---13h15p13--------13--15-|  
g|-------------------------------10-----10h12p10---12/14---------------------------14--------------| 
D|-------------------12----------------------------------------------------------------------------|  
A|------10h12--------------------------------------------------------------------------------------|  
E|-------------------------------------------------------------------------------------------------|  



e|----15b16----13--13p12----12p10-----10p8-----8h10---10------------------------------------| 
b|-----------------------------------------------------------------------------15-----------|  
g|------------------------------------------------------------------------------------13b12-|  
D|------------------------------------------------------------------------------------------|  
A|------------------------------------------------------------------------------------------|  
E|------------------------------------------------------------------------------------------|  


Dm        G              C              Dm       
y los demás se perdieron entre si  
         G            C          Dm     
y los demás me dejaron decidir 
         G           C              Asus     
y los demás, a lo lejos miran hoy 
               A                    D                             
donde va a empezar todo una vez mas. 




-
Good
-
Bad
-
Votes
25
Views
| Good! | Bad!

7 Days to die streamer