[X]


La afinacion del Bajo es: (Db Gb B E) 
Empezemos!!! 

  Q=88 
 4/4 
  Gtr I 
  W          Q.   E   E   E   E   E     H    E   E   E   E     Q.   E   E   E   E   E                 
|----------|-2--------------|-2------------|--------2---2----| 
|----------|--------2---2---|------2---2---|-0---------------| 
|----------|----------------|--------------|-----------------| 
|----------|----------------|--------------|-----------------| 


  Q.   E   E   E   E   E     H    Q  E   E     Q  +S  S E   +H       W         
|-0--------------|-5----0--5---|-4--(4)------------|------| 
|--------0---0---|-------------|----------2-(2)----|------| 
|----------------|-------------|-------------------|------| 
|----------------|-------------|-------------------|------| 


  H    +S  S E E E   H    +E  E Q    H    +Q   +S  S E   H    +Q   Q 
|-2----(2)---------|-2----(2)------|-2----(2)--(2)-----|-----------2--| 
|------------------|------------2--|-------------------|-0----(0)-----| 
|--------------7---|---------------|-------------------|--------------| 
|------------------|---------------|-------------------|--------------| 


  H.      Q    H    +Q   E E   Q.   E H      Q  E S S E E E E 
|-0----------|-5----(5)--5---|-4-----------|-2----2------------| 
|------------|---------------|--------2----|----------2---2----| 
|------------|---------------|-------------|-------------------| 
|------------|---------------|-------------|-------------------| 


  Q  +S  S S S E   E   E   E     Q  E   S S E   E   E   E            
|-2--(2)---2-----------|----------2---2---| 
|--------------2---2---|-0----0-----------| 
|----------------------|------------------| 
|----------------------|------------------| 


  Q  E   S S E   E   E   E     Q  E   S S E   E   Q         
|-0----0-----------|-5----5-----------| 
|----------0---0---|----------5---5---| 
|------------------|------------------| 
|------------------|------------------| 


  Q  E   S S E   E   E   E     Q  E   S S E   E   E   E             
|-4----4-----------|-2----2---6---6---| 
|----------2---2---|------------------| 
|------------------|------------------| 
|------------------|------------------| 


  Q  +S  S S S E   E   E   E     Q  E   S S E   E   E   E            
|--------------2-------|-0----0-------0----| 
|-0--(0)---0-------0---|----------0--------| 
|----------------------|-------------------| 
|----------------------|-------------------| 


  Q  E S S Q  Q    Q  E S S Q  E E   Q  E S S Q  E E   Q  E S S E E E E 
|-5----5------5--|----------5------|----------2------|-4----4-----------| 
|----------5-----|-3----3------3---|-0----0------0---|----------2---2---| 
|----------------|-----------------|-----------------|------------------| 
|----------------|-----------------|-----------------|------------------| 


  Q  E S S E E E E   Q  +S  S S S E E E E   Q  E S S E E E E   Q  E S S Q  Q 
|-2----2-------2---|--------------2-------|-0----0-------0---|-5----5------5---| 
|----------2-------|-0--(0)---0-------0---|----------0-------|----------5------| 
|------------------|----------------------|------------------|-----------------| 
|------------------|----------------------|------------------|-----------------| 


  Q  E S S Q  E E   H    Q  E S S   Q  E S S E E E E   H.      Q 
|----------5------|------2----5---|-4----4-----------|-2-----------| 
|-3----3------3---|-0-------------|----------2---2---|-------------| 
|-----------------|---------------|------------------|-------------| 
|-----------------|---------------|------------------|-------------| 


  H.      Q    Q  E   S S E   E   E   E     Q  +S  S S S E   E   E   E     Q  E   S S E   E   E   E                 
|-2----------|-2----2-----------|-2--(2)---2-----------|----------2---2---| 
|------------|----------2---2---|--------------2---2---|-0----0-----------| 
|------------|------------------|----------------------|------------------| 
|------------|------------------|----------------------|------------------| 


  Q  E   S S E   E   E   E     Q  E   S S E   E   Q    Q  E   S S E   E   E   E     Q  E   S S E   E   E   E                     
|-0----0-----------|-5----5----------|-4----4-----------|-2----2-----------| 
|----------0---0---|----------5---5--|----------2---2---|----------2---2---| 
|------------------|-----------------|------------------|------------------| 
|------------------|-----------------|------------------|------------------| 


  Q  +S  S S S E   E   E   E     Q  E   S S E   E   E   E            
|-2--(2)---2-----------|----------2---2---| 
|--------------2---2---|-0----0-----------| 
|----------------------|------------------| 
|----------------------|------------------| 


  Q  E   S S E   E   E   E     Q  E   S S E   E   Q         
|-0----0-----------|-5----5-----------| 
|----------0---0---|----------5---5---| 
|------------------|------------------| 
|------------------|------------------| 


  Q  E   S S E   E   E   E     Q  E   S S E   E   E   E             
|-4----4-----------|-2----2-----------| 
|----------2---2---|----------2---2---| 
|------------------|------------------| 
|------------------|------------------| 


  Q  +S  S S S E   E   E   E     Q  E   S S E   E   E   E            
|-2--(2)---2-----------|----------2---2----| 
|--------------2---2---|-0----0------------| 
|----------------------|-------------------| 
|----------------------|-------------------| 


  Q  E   S S E   E   E   E     Q  E   S S E   E   Q    Q  E   S S E   E   E   E     Q  E   S S E   E   E   E                     
|-0----0-----------|-5----5----------|-4----4-----------|-2----2---6---6---| 
|----------0---0---|----------5---5--|----------2---2---|------------------| 
|------------------|-----------------|------------------|------------------| 
|------------------|-----------------|------------------|------------------| 


  Q  +S  S S S E E E E   Q  E S S E E E E   Q  E S S Q  Q    Q  E S S Q  E E 
|--------------2-------|-0----0-------0---|-5----5------5--|----------5-------| 
|-0--(0)---0-------0---|----------0-------|----------5-----|-3----3------3----| 
|----------------------|------------------|----------------|------------------| 
|----------------------|------------------|----------------|------------------| 


  Q  E   S S Q  E   E     Q  E   S S E   E   E   E           
|----------2------|-4----4-----------| 
|-0----0------0---|----------2---2---| 
|-----------------|------------------| 
|-----------------|------------------| 


  Q  E   S S E   E   E   E     Q  +S  S S S E   E   E   E            
|-2----2-------2---|--------------2--------| 
|----------2-------|-0--(0)---0-------0----| 
|------------------|-----------------------| 
|------------------|-----------------------| 


  Q  E S S E E E E   Q  E S S Q  Q    Q  E S S Q  E E   H    Q  E S S 
|-0----0-------0---|-5----5------5--|----------5------|------2----5---| 
|----------0-------|----------5-----|-3----3------3---|-0-------------| 
|------------------|----------------|-----------------|---------------| 
|------------------|----------------|-----------------|---------------| 


  Q  E S S E E E E   H    +Q   E E   H    +Q   Q    Q  +S  S E E E E S S 
|-4----4-----------|-2----(2)------|-2----(2)-----|-2--(2)-----------5----| 
|----------2---2---|-----------2---|-----------2--|----------3---2--------| 
|------------------|---------------|--------------|-----------------------| 
|------------------|---------------|--------------|-----------------------| 


  W          +E  E Q  H 
|-2--------|-(2)-----------*| 
|----------|---------------*| 
|----------|---------------*| 
|----------|---------------*| 

FIN!!! 
- BUENO AQUI ABAJO ESTA EL SIGNIFICADO DE LAS LETRAS Y LOS SIGNOS... 
- ESPERO QUE LES HAYA AGRADADO Y SOBRETODO QUE LE HAYAN ENTENDIDO... 
- POR SI ALGUNA RAZON NO LE ENTIENDEN PUES HECHENME UN MAIL A: sNaKePiTs@guitar.com 
- SI QUIEREN ALGUNA PETICION PUES TAMBIEN HECHENME UN MAIL... 
- ESTA CANCION Y OTRAS LAS TENGO EN ARCHIVOS POWERTAB, POR SI ALGUIEN LA QUIERE... 
  PUES HECHENME UN MAIL PIDIENDOLAS... 
- LOS VERE EN LA PROXIMA CANCION!!!... 


NOTA!!!: PUEDEN UTILIZAR ESTA TAB PARA PUBLICARLA DONDE USTEDES 
QUIERAN, PERO POR FAVOR LES RUEGO QUE ME DEN LOS CREDITOS COMO 
TRANSCRIPTOR DE LA MISMA...GRACIAS!!! 

NESTOR SADAO ARECHIGA CERVANTES (sNaKePiTs@guitar.com) 


LEYENDA DE LAS NOTAS: 

W = (REDONDA)     NOTA COMPLETA 
H = (BLANCA)      MEDIA NOTA 
Q = (NEGRA)       CUARTO DE NOTA 
E = (CORCHEA)     OCTAVO DE NOTA 
S = (SEMICORCHEA) DIECISEISAVA DE NOTA 
T = (FUSA)        TREINTAIDOSAVA DE NOTA 
X = (SEMIFUSA)    SESENTAICUATROAVA DE NOTA 

a  =  ACCIACCATURA 
+  =  LIGADURA 
.  =  AUMENTA LA DURACION DE LA NOTA 
.. =  AUMENTA LA DOBLE DE LA DURACION DE LA NOTA 


LEYENDA DEL "PENTAGRAMA" 
 |  - COMPAS 
||  - DOBLE COMPAS 
||o - ES DONDE VA A COMENZAR CUANDO ALGO SE VA A REPETIR 
o|| - ES DONDE VA A TERMINAR CUANDO ALGO SE VA A REPETIR 
*|  - FIN DE LA CANCION 
 :  - COMPAS LIBRE 
 $  - SEGNO (AL VER ESTE SIGNO, TENEMOS QUE RETROCEDER HASTA VER EL SIGNO ANTERIOR $...) 
 &  - CODA (SIGNIFICA QUE DEBES PASAR LA SIGUIENTE SIGNO &) 




1
Good
-
Bad
1
Votes
23
Views
| Good! | Bad!

7 Days to die streamer