[X]

NOTA:
Si no puedes ver completamente la cancion o los tabs,
descargala utilizando el boton de arriba, 
esto depende de tu explorador o de la fuente.
Pero la puedes descargar como archivo de texto.





             Tommy heavenly6
PAPERMOON
           Soul Eater OP 2/PAPERMOON single

Tabbed by Sippy
Edited by TheDeadServ
JewTube(YouTube)=sippykun
email=confugulence@hotmail.com

IF you can´t get it with a tab like this, give up on guitar!
Based on TheDeadServ´s youtube vid. This tab is an improved 
version that makes up with the overdubs used on the original song.
If you find this tab useful, make sure to express your thanks 
over at our profiles (youtube.com/thedeadserv & youtube.com/SIPPYkun) and video.

May not be 100% perfect, but hopefully it helps. Added lyrics for clarity for some parts, sorry if my Romaji isn´t correct haha..

Video URL:http://www.youtube.com/watch?v=Qfa8etWLHCs

EDITOR NOTE:

"~" (tilde)
let ring

"P.M."
Palm Mute

"x"
Dead Note/kill Note

Standard Tuning (E A D G B E)

Intro:


e|---------|
B|---------|
G|---------|
D|---------| x5
A|---------|
E|-3--6--5-|



RHYTHM

e|--------------------------------------------------------------------------------------------------------------------|
B|--------------------------------------------------------------------------------------------------------------------|
G|--3---3-3--3--3--3--3--3-3-3--5---5-5--5--5--5--5--5-5-5--x-------------------------------------------------2--|
D|--5---5-5--5--5--5--5--5-5-5--4---4-4--4--4--4--4--4-4-4--8---8-8--8--8--8--8--8-8-8--5---5-5-5-5-5--3---3-3-3-3-3--|
A|--5---5-5--5--5--5--5--5-5-5--3---3-3--3--3--3--3--3-3-3--6---6-6--6--6--6--6--6-6-6--3---3-3-3-3-3--3---3-3-3-3-3--|
E|--3---3-3--3--3--3--3--3-3-3--2---2-2--2--2--2--2--2-2-2--6---6-6--6--6--6--6--6-6-6--3---3-3-3-3-3--1---1-1-1-1-1--|

LEAD

e|----------------------------------------------------------------------------|
B|----------------------------------------------------------------------------|
G|----------10-----8---7------------7----------------10-----8---7-------------|
D|--8---8-8-----8--------8--10---------10---8---8-8------8----------10-----7--|
A|----------------------------------------------------------------------------|
E|----------------------------------------------------------------------------|


VERSE:

1.

RHYTHM

e|------3-----------------------------------------------------|
B|------3-----------------------------------------------------|
G|--3---3------------------8-----8--8---8-5--5--5--2--2--2--2-|
D|--5--------------4~----4-6-----6--6---6-3--3--3--3--3--3--3-| x2
A|--5-----------3--------3-6-----6--6---6-3--3--3--3--3--3--3-|
E|--3--------2-----------2-------------------------1--1--1--1-|
           I’m Falling Down Into My Shadow
        iki wo hisomete matteiru Deadly Night
      Don’t scary majou ga egaita KABOCHA no basha mo
             sono me ni utsuseru kara

PRE CHORUS:

2.

LEAD
  P.M.-------------       P.M.----------------------
e|-----------------------------------------------------6---6----|
B|----4-3-----4-3---6---6-3-2-3-2-------4-3---4-3----6---6---6--|
G|--3-------3-----3---------------3-2-3-----3-----3-------------|
D|--------------------------------------------------------------|
A|--------------------------------------------------------------|
E|--------------------------------------------------------------|
              See you in your dreams Yeah Baby
                  kowai yume dato shitemo

3.

RHYTHM
            x              x               x
e|----------------------------------------------------------|
B|----------------------------------------------------------|
G|--8---8---8-6--10---10---10-10----------------------------|
D|--6---6---6-6--9----9----9--9---5---5---5-5--7---7---7-7--|
A|--6---6---6-6--8----8----8--8---5---5---5-5--7---7---7-7--|
E|--------------------------------3---3---3-3--5---5---5-5--|

PRE CHORUS OUT:
LEAD

e|-------------------------------------------------------------------|
B|-------------------------13---13---13-13/15--15-15-15-15-15-15-15--|
G|----3------3----3---3----12---12---12-12/14--14-14-14-14-14-14-14--|
D|--5----5-8----8---8---8--------------------------------------------|
A|-------------------------------------------------------------------|
E|-------------------------------------------------------------------|

3.

RHYTHM
            
e|----------------------------------------------------------|
B|----------------------------------------------------------|
G|--8---8---8--8---8---8--5--5---5--7---7---7---------------|
D|--6---6---6--6---6---6--3--3---3--5---5---5---------------|
A|--6---6---6--6---6---6--3--3---3--5---5---5---------------|
E|----------------------------------------------------------|
CHORUS:

1st chorus halve.

RHYTHM
  
e|--------------------------------------------------------------|
B|--------------------------------------------------------------|
G|-3---3-----3-8---8----8-8-8-----------------------------------|
D|-5---5-----5-6---6----6-6-6-8---8----8-8-8-8-10--10--10-10-10-|
A|-5---5-----5-6---6----6-6-6-8---8----8-8-8-8-8---8---9--9--9--|
E|-3---3-----3----------------6---6----6-6-6-6-8---8---8--8--8--|

------------------------------------------|
------------------------------------------|
------------------------------------5~----|
------------------------------------3~----|
5---5-----5-5---5-----5-5---5-----5-3~----|
3---3-----3-2---2-----2-1---1-----1-------|


2nd chorus halve

LEAD

1.
  -2 guitars here-
e|-----------------------------------------|-------------------------|
B|15-----15-----16-----16-----15-----15----|-13--13--13--13-11-11-11-|
G|----15-----15-----15-----15-----15-----15|-13--14--14--11-11-11-11-|
D|-----------------------------------------|-----15--15--13-13-13-13-|
A|-----------------------------------------|-------------------------|
E|-----------------------------------------|-------------------------|


--------------11-11-11--11-11-10--10-10-10-|----------------|
-----11----11-11-11-11--11-11-11--11-11-11-|--13--13--11-10-|
-/12----12---------------------------------|----------------|
-------------------------------------------|--13--13--12-10-|
-------------------------------------------|----------------|
-------------------------------------------|----------------|
                     Fairy Blue kimi no tame ni hoshi wo kudaki
                           kasaritsuketa Black Paper Moon




RHYTHM
  
e|--------------------------------------------------------------|   |------------------------------------------|
B|--------------------------------------------------------------|   |------------------------------------------|
G|-3---3-----3-8---8----8-8-8-----------------------------------|   |------------------------------------5~----|
D|-5---5-----5-6---6----6-6-6-8---8----8-8-8-8-10--10--10-10-10-|   |------------------------------------3~----|
A|-5---5-----5-6---6----6-6-6-8---8----8-8-8-8-8---8---9--9--9--|   |5---5-----5-5---5-----5-5---5-----5-3~----|
E|-3---3-----3----------------6---6----6-6-6-6-8---8---8--8--8--|   |3---3-----3-2---2-----2-1---1-----1-------|
              shinjitekureta nara When you’re lost here I am
                         Forever with your soul


LEAD

1.

e|-----------------------------------------|-------------------------|-------------------------------------------------------------|
B|15-----15-----16-----16-----15-----15----|-13--13--13--13-11-11-11-|-----11~--------11~--------11~-----/13-13-13-13-13-13-13-13--|
G|----15-----15-----15-----15-----15-----15|-13--14--14--11-11-11-11-|-/12~----12-11~-----11-10~-----10--/12-12-12-12-12-12-12-12--|
D|-----------------------------------------|-----15--15--13-13-13-13-|-------------------------------------------------------------|
A|-----------------------------------------|-------------------------|-------------------------------------------------------------|
E|-----------------------------------------|-------------------------|-------------------------------------------------------------|

CHORUS OUTRO
RHYTHM

e|--------------------------------------------------------------|
B|--------------------------------------------------------------|
G|--------------------------------------------------------------|
D|--8--8-8--8--8--8--8--8-8-8---9--9-9--9--9--9--9--9--9--9-----|
A|--6--6-6--6--6--6--6--6-6-6---8--8-8--8--8--8--8--12-12-12----|
E|--6--6-6--6--6--6--6--6-6-6---7--7-7--7--7--7--7--7--7--7-----|
          miagereba kagayaku tsuki no you ni

LEAD

1.


e|---------------------------------------------------------------------------|
B|--16--16-16--16--16--16--16--16-16-16--13--13-13--13--13--13--13--13-13-13-|
G|--15--15-15--15--15--15--15--15-15-15--11--11-11--11--11--11--11--14-14-14-|
D|--13--13-13--13--13--13--13--13-13-13--13--13-13--13--13--13--13--16-16-16-|
A|---------------------------------------------------------------------------|
E|---------------------------------------------------------------------------|


BRIDGE INTRO
RHYTHM

e|-------------------------------------------------------------------------------------|
B|-------------------------------------------------------------------------------------|
G|-------------------------------------------------------------------------------------|
D|-5---5-5--5--5--5--5--5-8-8-5---5-5--5--5--5-6--6--6--6--6--6--6---------------------|
A|-5---5-5--5--5--5--5--5-8-8-5---5-5--5--5--5-4--4--4--4--4--4--4---------------------|
E|-3---3-3--3--3--3--3--3-6-6-3---3-3--3--3--3-4--4--4--4--4--4--4---------------------|

LEAD

e|-------------------------------------------------------------------------------------|
B|-------------------------------------------------------------------------------------|
G|-------------------------------------------------------------------------------------|
D|-12---12-12--12--12--12--12--12-15-15-12---12-12--12--12--12-18-18-18-18-18-18-18----|
A|-10---10-10--10--10--10--10--10-13-13-10---10-10--10--10--10-16-16-16-16-16-16-16----|
E|-------------------------------------------------------------------------------------|


BRIDGE
RHYTHM
    P.M.--        P.M.----        P.M.----       P.M.-- (SAME PATTERN FOR THE WHOLE BRIDGE)
e|-----------------------------------------------------------|
B|-----------------------------------------------------------|
G|-----------------------------------------------------------|
D|-8---8-8-8~----10--10-10-10~----11--11-11-11~--7---7-7-7~--|
A|-8---8-8-8~----10--10-10-10~----11--11-11-11~--5---5-5-5~--|
E|-6---6-6-6~----8---8--8--8~-----9---9--9--9~---5---5-5-5~--|

LEAD

1.

e|-------------------------------------------------------------------------------------------|
B|-11-10----11-10----11-10----11-10----11-10----10-11-10----11-10----11-10----10-10----10----|
G|-------12-------12-------10-------10-------10----------12-------12-------10-------10----10-|
D|-------------------------------------------------------------------------------------------|
A|-------------------------------------------------------------------------------------------|
E|-------------------------------------------------------------------------------------------|
              dare mo shinjirarenakute hikutsu ni naru toki mo aru
              soredemo kimi no kotoba ha itsudemo mune ni hibiiteru

RHYTHM

e|-----------------------------------------------------------------------|
B|-----------------------------------------------------------------------|
G|-----------------------------------------------------------------------|
D|-8---8-8-8-----10--10-10-10----11--11-11-11---x-11-11-11-11-11-11-11---|x2
A|-8---8-8-8-----10--10-10-10----11--11-11-11---x-11-11-11-11-11-11-11---|
E|-6---6-6-6-----8---8--8--8-----9---9--9--9----x-9--9--9--9--9--9--9----|

LEAD

e|------------------------------------------------------------------------------------------|
B|-11-10----11-10----11-10----11-10----11-10----10-11-10----11-10----11-10\-x-7-7-7-7-7-7\x-|
G|-------12-------12-------10-------10-------10----------12-------12------\-x-7-7-7-7-7-7\x-|
D|------------------------------------------------------------------------\-x-7-7-7-7-7-7\x-|  x2
A|------------------------------------------------------------------------------------------|
E|------------------------------------------------------------------------------------------|



                      kimi ha hitori janai
                   When you’re lost here I am
                      Forever with your soul
               tadoritsukeru kimi ga shinjiru nara
 
BRIDGE OUTRO
RHYTHM

e|-------------------------------------------------------------------------|
B|-11-11-11-11-11---11-11---11---11--11-11-11------------------------------|
G|-8--8--8--8--8----8--10---10---8---8--8--8-------5~------/---7~------\x--|
D|-8--8--8--8--8----8--8----8----8---8--8--8----5~----5----/7~----7~---\x--|
A|-------------------------------------------------------------------------|
E|-------------------------------------------------------------------------|

LEAD

e|-------------------------------------------------------------------------|
B|-16-16-16-16-16---16-16---16---16--16-16-16--\13-13-13----13-13-13----\x-|
G|-15-15-15-15-15---15-15---15---15--15-15-15--\12-12-12---/14-14-14----\x-|
D|-------------------------------------------------------------------------|
A|-------------------------------------------------------------------------|
E|-------------------------------------------------------------------------|



(CHORUS) With alternate muting. The transition between chorus parts is easy to understand. Follow the same power chord pattern.

CLOSING
RHYTHM

e|--------------------------------------------------------------------------------------------|
B|--------------------------------------------------------------------------------------------|
G|--3---3-3--3--3--3--3--3-3-3--5---5-5--5--5--5--5--5-5-5--x---------------------------------|
D|--5---5-5--5--5--5--5--5-5-5--4---4-4--4--4--4--4--4-4-4--8---8-8--8--8---5-5-5-5-5-5-5--5~~|
A|--5---5-5--5--5--5--5--5-5-5--3---3-3--3--3--3--3--3-3-3--6---6-6--6--6---3-3-3-3-3-3-3--5~~|
E|--3---3-3--3--3--3--3--3-3-3--2---2-2--2--2--2--2--2-2-2--6---6-6--6--6---3-3-3-3-3-3-3--3~~|

LEAD(octaves)

e|--------------------------------------------------------------------------------------------|
B|--------------------------------------------------------------------------------------------|
G|--12--14--15--20--19--17--15--17--12--------------------------------------------------------|
D|--------------------------------------------------------------------------------------------|
A|--10--12--13--18--17--15--13--15--10--------------------------------------------------------|
E|--------------------------------------------------------------------------------------------|



42
Good
26
Bad
68
Votes
50,121
Views
| Good! | Bad!

Sponsored Game Streamer