[X]


(Un poco lento)  
  Lam     
E|---0-----0------|  
B|-----1-----1----| x2             Arpegiado de Milonga,  
G|-------2-----2--|             después de uno completo hay  
D|----------------|             un breve silencio  
A|-0--------------|  
E|----------------|  

  Mi     
E|---0-----0-----|  
B|-----0-----0---| x2     
G|-------1-----1-|  
D|---------------|  
A|---------------|  
E|-0-------------|  

  Lam                (Acá aumenta un poco  La   velocidad, andante)  
E|---0-----0-----|--4-5-0--3-0--1-0--|  
B|-----1-----1---|-------------------|  
G|-------2-----2-|-------------------|  
D|---------------|-------------------|  
A|-0-------------|-------------------|  
E|---------------|-------------------|  

  Mi                                 Lam    
E|-0----------1---0-------------|-0---------0---0-------------|  
B|-----0---0----------0---0--3--|----1---1----------1---1--3--|  
G|-------1--------------1-------|------2--------------2-------|  
D|------------------------------|-----------------------------|  
A|------------------------------|-0-------------0-------------|  
E|-0--------------0-------------|-----------------------------|  

  Mi                                 Lam    
E|-0--------------0-------------|----------------|  
B|-----0---0--3-------0---0--1--|----------1-----|  
G|-------1--------------1-------|--------2-------|  
D|------------------------------|----------------|  
A|------------------------------|-0------------0-|  
E|-0--------------0-------------|------------0---|  



E|--4-5-0--3-0--1-0--|  
B|-------------------|  
G|-------------------|  
D|-------------------|  
A|-------------------|  
E|-------------------|  

  Mi                              Lam    
E|-0----------1---0------------|-0----------0---0-----------|  
B|-----0---0---------0---0--3--|----1---1---------1---1--3--|  
G|-------1-------------1-------|------2-------------2-------|  
D|-----------------------------|----------------------------|  
A|-----------------------------|-0--------------0-----------|  
E|-0--------------0------------|----------------------------|  


  Mi                              Lam    
E|-0------------0------------|--------------|---8-----8-----8-|  
B|----0---0--3-----0---0--1--|----------1---|-----5-----5-----|  
G|------1------------1-------|--------2-----|-------5-----5---|  
D|---------------------------|--------------|-----------------|  
A|---------------------------|-0------------|-0---------------|  
E|-0------------0------------|------------0-|-----------------|  


E|---8-----8----8-----8-----8--|---8-----8----8-----7-----5--|  
B|-----7----------7-----7------|-----5----------5-----5------|  
G|-------8----------8-----8----|-------5----------5-----5----|  
D|-----------------------------|-----------------------------|  
A|-----------------------------|-0----------0----------------|  
E|-0----------0----------------|-----------------------------|  


E|---4-----5----4-----5-----4--|---5-----5----5-----3-----1--|  
B|-----3----------3-----3------|-----5----------5-----0------|  
G|-------4----------4-----4----|-------5----------5-----2----|  
D|-----------------------------|-----------------------------|  
A|-----------------------------|-0----------0----------------|  
E|-0----------0----------------|-----------------------------|  

  Mi                                Lam    
E|---0-----3----0-----3-----0--|---0-----1----0-----1-----0--|  
B|-----0----------0-----0------|-----1----------1-----1------|  
G|-------1----------1-----1----|-------2----------2-----2----|  
D|-----------------------------|-----------------------------|  
A|-----------------------------|-0----------0----------------|  
E|-0----------0----------------|-----------------------------|  



  Mi                                       Lam    
E|---0-----------------0----------------0--|  
B|-----0---3------0------0---1------0---1--|  
G|-------1----1-1----------1----1-1-----2--|  
D|--------------------------------------2--|  
A|--------------------------------------0--|  
E|-0-----------------0---------------------|  



Llega hasta acá y se repite todo de nuevo. Después:  

 (Rápido)  
E|-----0--------0--------0--------0--------0--------0--------0---  
B|---5---5----5---5----5---5----3---3----6---6----5---5----3---3-  
G|-5--------5--------5--------4--------7--------5--------4-------  
D|---------------------------------------------------------------  
A|---------------------------------------------------------------  
E|---------------------------------------------------------------  


E|-----0---------0--------0--------0--------0--------0----  
B|---1---1-----5---5----3---3----1---1----0---0----3---3--  
G|-2---------5--------4--------2--------1--------4--------  
D|--------------------------------------------------------  
A|--------------------------------------------------------  
E|--------------------------------------------------------  


E|-----0--------0------0--|  
B|---1---1----0---0----1--|  
G|-2--------1----------2--|  
D|------------------------|  
A|------------------------|  
E|------------------------|  


 (Más Lento)                           Rem          Do    
E|-----5--------3--------1--------0--------1--------0----  
B|---5---5----3---3----1---1----0---0----3---3----1---1--  
G|-5--------4--------2--------1--------2--------0--------  
D|-------------------------------------------------------  
A|-------------------------------------------------------  
E|-------------------------------------------------------  

  Mi            Lam    
E|-----0--------0----|-----------5--|  
B|---0---0----1---1--|--------------|  
G|-1--------2--------|--------------|  
D|-------------------|--------------|  
A|-------------------|--0-3---------|  
E|-------------------|--------------|  

--------------------------------------------------------------  
--------------------------------------------------------------  
--------------------------------------------------------------  



En esta canción se utiliza mucho el arpegio de milonga que  
 consiste en arpegiar el acorde de La    siguiente manera:  

E|----A  ---------A  --------s--       P: Pulgar  
B|-------M---------M-----s--       I: Indice  
G|----------I---------I--s--       M: Medio  
D|-----------------------s--       A: Anular  
A|-----------------------s--       S: Silencio antes de empezar  
E|-P---------------------s--          de nuevo el arpegiado,  
                                      que reemplaza una última  
 o de otra forma:                     nota  

E|----A  ---------A  --------A  --  
B|-------M---------M--------  
G|----------I---------I-----  
D|--------------------------  
A|--------------------------  
E|-P------------------------  



Primero se toca el bajo del acorde. La    cuerda más grave que suene.  
 Por ej con Mi    va  A   ser  La   6ta, con  Lam   va  A   ser  La   5ta y con  Rem    La   4ta.  

Después las cuerdas más agudas en este órden:  
    1ra, 2da, 3ra, 1ra, 2da, 3ra  

(el último tiempo puede ser realizado por una nota: La    1ra cuerda,  
 o simplemente hacer un breve silencio antes de comenzar de nuevo  
 el arpegiado)  


Muchas gracias por elegir este tab, calificalo  

                                                 Rafa 


2
Good
1
Bad
3
Votes
3,303
Views
| Good! | Bad!

Sponsored Game Streamer