[X]



Hola hermanos de lacuerda.net aqui les traigo la transcripción 
completa de "Adiós pueblo de Ayacucho" tocada por el gran 
maestro Don Raúl García Zarate. Con este aporte espero ayudarlos 
a aquellos que quieran tocar nuestra música que es el legado más 
hermoso que tiene el Perú. Amigo, si puedes ve y dale esta 
tabladura a más gente que quiera tocar esta música tan hermosa 
para que nuestro patrimonio cultural nunca muera. 
Nota: Amigo principiante, si esto te parece algo dificil, 
no pierdas la esperanza, sigue intentando hasta que lo consigas 
nadie nace siendo un maestro, pero el maestro se hace con la 
práctica. Gracias... 

Como ya sabrán la SEXTA cuerda afinada en FA, las demás Standard. 

Introducción: 

|---------|---------|---------|-------| 
|----10v--|----5g6--|----10v--|----6--| 
|----9v---|----6g7--|----9v---|----7--| 
|---------|-----0---|---------|-0-----| 
|-----0---|---------|----0----|-------| 
|---------|---------|---------|-------| 

|----------------------|----------------------| 
|-10---10---8g10---8p6-|-10---10---8g10---8p6-| 
|----9----9------------|----9----9------------| 
|----------------0-----|----------------0-----| 
|---------0------------|---------0------------| 
|-0--------------------|-0--------------------| 

|------------------------------------------------------------| 
|-10---10---8g10---8p6---6-8-8g10-------8p6---6-8-8g10-------| 
|----9----9------------6------------6g7-----6------------6g7-| 
|----------------0--------------------0--------------------0-| 
|---------0-----------------------0--------------------0-----| 
|-0----------------------------------------------------------| 

|-----------------------5---3-3p2p1-------------------| 
|-----------2-3-2-3-5-6---5---------3-2-3-3g5-2l3---3-| 
|-2---2-0-2-------------------------------------------| 
|---3---------0---------------0-------------------0---| 
|---------0---------------0---------------0-----------| 
|---0-3-----------------------------------------------| 

|-------------------------------| 
|-----------2-3-------3---2---3-| 
|-2---2-0-2-----2-0-2---2---2---| 
|---3---------0---------------0-| 
|---------0---------------0-----| 
|---0-3-------------------------| 

|-------------------------| 
|-----------------------3-| 
|-2-2---2-2---2-2---2-2---| --- (x3) - la última es un poco más lento 
|-----------------------0-|     (Cuando pulses el segundo traste de la 
|-----------------0-------|     tercera cuerda haslo con los dos dedos) 
|-----0-----3-------------| 

CUERPO DE LA CANCIÓN 

|-5g10-10-10-9g10-10-10-12g13-10---12g13-10p8----10p8---| 
|---------------------------------------------10--------| 
|-------------------------------------------------------| 
|------8-----7s8--------10s11----8----------------------| 
|-----------------------------------------------------0-| 
|------------------------------------------0------------| 

|-10tt-10g13-10p8----10ttv-10p8-0l5---5l7g8-3p1----------------------------| 
|------10g13------10------------6-----6  g7-----2l3---3-3------------2-3---| 
|----------------------------------------------------------2---2-0-2-------| 
|---------------------------------------------------0--------3---------0---| 
|------------------------0--------------------0--------------------0-------| 
|------0----------0-----------------0------------------------0-3---------0-| 


|-5g10-10-10-9g10-10-10-12g13-10---12g13-10p8----10p8---| 
|---------------------------------------------10--------| 
|-------------------------------------------------------| 
|------8-----7g8--------10g11----8----------------------| 
|-----------------------------------------------------0-| 
|------------------------------------------0------------| 

|-10tg13-10-10p8----10tt-10p8-0l5---5l7g8-3p1----------------------------| 
|----------------10-----------6-----6  g7-----2l3---3-3------------2-3---| 
|--------------------------------------------------------2---2-0-2-------| 
|-------------------------------------------------0--------3---------0---| 
|------------------------0------------------0--------------------0-------| 
|--------0-------0----------------0------------------------0-3---------0-| 

|-1-3-5-5-5p4g3-3-5-5-8l10---8l10p8-----9l10-10-10p8----7g8-----| 
|-3---6-----------6-6-10----------------10-----------10-10------| 
|----------------------------------------------------10---------| 
|---------------------------------------------------------------| 
|-----0-----------0--------0------------0---------------------0-| 
|---0-----------0-----0-------------0-----------0-----------0---| 

|-10tt-10g13-10p8----10ttv-10p8-0h5---5l7g8-3p1----------------------------| 
|------10g13------10------------6-----6  g7-----2l3---3-3------------2-3---| 
|----------------------------------------------------------2---2-0-2-------| 
|---------------------------------------------------0--------3---------0---| 
|----------0---------0--------0---------------0--------------------0-------| 
|------0----------0--------0--------0------------------------0-3---------0-| 

|-1-3-5-5-5p4g3-3-5-5-8l10---8l10p8-----9l10-10-10p8----7g8-----| 
|-3---6-----------6-6-10----------------10-----------10-10------| 
|----------------------------------------------------10---------| 
|---------------------------------------------------------------| 
|-----0-----------0--------0------------0---------------------0-| 
|---0-----------0-----0-------------0-----------0-----------0---| 

|-10tg13---10-10p8----10ttv-10p8-0h5---5l7g8-3p1----------------------------| 
|----------10------10------------6-----6  g7-----2l3---3-3------------2-3---| 
|---------------------------------------------------------2---2-0-2---------| 
|----------------------------------------------------0------3-----------0---| 
|----------0----------0--------0---------------0------------------0---------| 
|--------0---------0--------0--------0----------------------0-3-----------0-| 


|-5-5-5-5-5-5-5-5-5-5-5-5-5-5-3-5-3-5-3p2p1-0-3-1-0-------------------| 
|---------------------------------------------------3-2-3-3g5-2l3---3-| 
|---------------------------------------------------------------------| 
|-----------0---------------0-------------------0-----------------0---| 
|-------0---------------0-------------------0-------------0-----------| 
|---------------0---2-------------------------------------------------| 

|-------------------------------| 
|-----------2-3-------3---2---3-| 
|-2---2-0-2-----2-0-2---2---2---| 
|---3---------0---------------0-| 
|---------0---------------0-----| 
|---0-3-------------------------| 

|-------------------------| 
|-----------------------3-| 
|-2-2---2-2---2-2---2-2---| 
|-----------------------0-| 
|-----------------0-------| 
|-----0-----3-------------| 

|---------------------------------------------------------------------------| 
|---3-3-2-3-3-5g6-3---3g6-3p1---3p1---3-3-3g5-3p1---3-3-3p1-----1l3---------| 
|-2-3-3-2-3-3-5g6-3---3g6-2  -2-------3-3-3g5-----2---2-2  -2---2  -2p0-----| 
|-----------------------------------------------------------3-------2p0-0-0-| 
|---1---0-1---3s4---1-------0-------------1s3-----0---------------------3-5-| 
|-----------------------------------2-------------------2-----0-------------| 

|-------------------------| 
|---------------------2-3-| 
|-----------------0-2-----| 
|-------0---0-2-3-------0-| 
|-0-2-4---4---------0-----| 
|-------------------------| 

|---------------------------------------------------------------------------| 
|---3-3-2-3-3-5g6-3---3g6-3p1---3p1---3-3-3g5-3p1---3-3-3p1-----1l3---------| 
|-2-3-3-2-3-3-5g6-3---3g6-2  -2-------3-3-3g5-----2---2-2  -2---2  -2p0-----| 
|-----------------------------------------------------------3-------2p0-0-0-| 
|---1---0-1---3s4---1-------0-------------1s3-----0---------------------3-5-| 
|-----------------------------------2-------------------2-----0-------------| 

|-----------------------------------------------------------------------| 
|----------------1l3---3p1---1-3-3p1---3p1-----2g3-3-3p1---3-3tp1---1l3-| 
|-0tl2-2-2-0-2-2-2  ---2-----2-2-----2---------2g3-3-2---2-2-2t---2-2  -| 
|------3-3-3-3-3--------------------------------------------------3-----| 
|------0-----0-------0-------0-------0-------0-----1-0-----0------------| 
|----0-----0-----0---------0-------0-------0--------------------2-------| 

|---------| 
|---------| 
|-2p0-----| 
|-2p0-0-0-| 
|-----3-5-| 
|---------| 

|----------------------------0l1----------------------------0l1------------| 
|----------------1l3---3p1---3  -3tp1---3p1-----2g3-3-3p1---3---3tp1---1l3-| 
|-0tl2-2-2-0-2-2-2  ---2--------------2---------2g3-3-2---2-----2t---2-2  -| 
|------3-3-3-3-3-----------------------------------------------------3-----| 
|------0-----0-------0-------0--------0-------0-----1-0-----0--------------| 
|----0-----0-----0---------0--------0-------0----------------------2-------| 

|---------| 
|---------| 
|-2p0-----| 
|-2p0-0-0-| 
|-----3-5-| 
|---------| 

|---------------------------------5---3-3p2p1-------------------| 
|---------------------2-3-2-3-5-6---5---------3-2-3-3g5-2l3---3-| 
|-----------------0-2-------------------------------------------| 
|-------0---0-2-3-------0---------------0-------------------0---| 
|-0-2-4---4---------0---------------0---------------0-----------| 
|---------------------------------------------------------------| 

|-------------------------------| 
|-----------2-3-------3---2---3-| 
|-2---2-0-2-----2-0-2---2---2---| 
|---3---------0---------------0-| 
|---------0---------------0-----| 
|---0-3-------------------------| 

|-------------------------| 
|-----------------------3-| 
|-2-2---2-2---2-2---2-2---| 
|-----------------------0-| 
|-----------------0-------| 
|-----0-----3-------------| 

Aqui se repite el inicio de la canción, y al finalizar hay dos formas una ésta: 

|----------------------|----------------------| 
|-10---10---8l10---8p6-|-10---10---8l10---8p6-| 
|----9----9------------|----9----9------------| 
|----------------0-----|----------------0-----| 
|---------0------------|---------0------------| 
|-0--------------------|-0--------------------| 

|----------------------|----------------------------5----10-| 
|-10---10---8l10---8p6-|---6-8-8s10-------5-6-8-5-6-0----10-| 
|----9----9------------|-6------------6g7-6-7-7-6-7------9--| 
|----------------0-----|--------------------------0------0--| 
|---------0------------|------------0-----------0---0-------| 
|-0--------------------|------------------------------------| 

al final de todo donde está 10,10,9 y 0 le haces un barrido 
con el pulgar, nada más. 

El otro final es éste: 

|-5-5-5-5-5-5-5-5-5-5-5-5-5-5-3-5-3-5-3p2p1-0-3-1-0-------------------| 
|---------------------------------------------------3-2-3-3g5-2l3---3-| 
|---------------------------------------------------------------------| 
|-----------0---------------0-------------------0-----------------0---| 
|-------0---------------0-------------------0-------------0-----------| 
|---------------0---2-------------------------------------------------| 

|---------------5-10-| 
|-----------2-3-0-10-| 
|-2---2-0-2-------9--| ----) bueno como verán el final es el mismo, 
|---3---------0---0--|       tambien se hace el barrido al final. 
|---------0-----0----|       Lo unico que cambia es la forma de finalizar. 
|---0-3--------------| 

En la parte final yo acostumbro finalizar de ésta ultima forma, 
solo que en el final lo hago así: 

|---10-| 
|-2-10-| 
|-2----|---) todo con barrido 
|-2----| 
|-0-8--| 
|------| 





1
Good
-
Bad
1
Votes
236
Views
| Good! | Bad!

Sponsored Game Streamer