[X]

E||--8--8--8--8--8--6h8p6--4--3-----3--4/6--4--3-----|| 
B||------------------------------4----------------4--|| 
G||--------------------------------------------------|| 
D||--------------------------------------------------|| 
A||--------------------------------------------------|| 
E||--------------------------------------------------|| 

E||---------------------------------3--4--3--3-----|| 
B||-----------------1--2--1h2p1--4--------------4--|| 
G||--------0--1--3---------------------------------|| 
D||--1--3------------------------------------------|| 
A||------------------------------------------------|| 
E||------------------------------------------------|| 

*1h2p1 (1hammer-on2pull-of1) Si    6h8p6 (6hammer-on8pull-off6) sunt niste  
triluri foarte rapide. As fi facut toata chestia asta in guitarpro, dar nu  
prea ma pricep La    ritm. in fine, daca aveti nevoie, lasati un comment... 


1
Good
-
Bad
1
Votes
2,345
Views
| Good! | Bad!

Sponsored Game Streamer