[X]


bueno pues aqui les dejo esta cancion La    1ª introduccion 
aveses en La    cancion no se oye y en otras  Si   depende de donde 
La    descarges o La    compres. 
el rasgeo es 2 abajo, 2 arriba y 1 abajo solo en La    parte sin 
La    letra es 3 abajo y 1 arriba. esta es La    mas completa para  Mi   
bueno pues los dejo espero que les sirva. 
Introducción: 


1.-0-----------------------------------------------5-. 
2.-3-----------------------------------------------3-. 
3.-2-2-3-5-5/7-5-5h7-5h7-7-7-5-7-7-9-9-9-7-5-5h7-2-2-. 
4.-0-------------------------------------------------. 
5.---------------------------------------------------. 
6.---------------------------------------------------. 

1.-5-5-3-5-6-5-3-1h3p1-0-1-0-------------. 
2.---------------------------3-3-1-1h3-3-. 
3.---------------------------------------. 
4.---------------------------------------. 
5.---------------------------------------. 
6.---------------------------------------. 

Introducción 2: 

1.------------------------------------------. 
2.-----------6-5-----5h6-5--------------1-1-. 
3.---------7-----5-5-------5------3---3-----. 
4.------------------------------3---3-------. 
5.-3-3-5-5--------0----------0-1------------. 
6.------------------------------------------. 

1.-------------------5--------------------. 
2.-----------6-5-----5-5--------------1-1-. 
3.---------7-----5-5-----5-------3---3----. 
4.-----------------------------3---3------. 
5.-3-3-5-5--------0--------0-1------------. 
6.----------------------------------------. 

1.------------------------------------------. 
2.-----------6-5-----5h6-5--------------1-1-. 
3.---------7-----5-5-------5------3---3-----. 
4.------------------------------3---3-------. 
5.-3-3-5-5--------0----------0-1------------. 
6.------------------------------------------. 

1.-------------------5-----------------------------. 
2.-----------6-5-----5-5---------------5-6p5-------. 
3.---------7-----5-5-----5-------3---3-6-----7-----. 
4.-----------------------------3---3-----------7---. 
5.-3-3-5-5--------0--------0-1-------------------8-. 
6.-------------------------------------------------. 






Dm           Am              Bb   
   Las palabras fueron avispas 
      C               Dm   
Y las calles como dunas 
           Am            Bb         F   
Cuando aun te espero llegar 
Dm           Am           Bb   
En un ataud guardo tu tacto 
      C    
Y una corona 
       Dm    
Con tu pelo enmarañado 
Am    
Queriendo encontrar 
     Bb         F   
Un arcoiris infinito 


D    -  F#m   -  G   -  A   


Dm                  Am            Bb   
   Mis manos que aun son de hueso 
     C                  Dm   
Y tu vientre sabe A    pan 
         Am           Bb         F   
La    catedral es tu cuerpo 
Dm            Am               Bb   
   Eras verano y mil tormentas 
      C    
Yo el leon 
       Dm    
Que sonrie A    las paredes 
       Am    
Que he vuelto A    pintar 
    Bb        F   
Del mismo color 


D                F#m             G            A   
   No se distinguir entre besos y raices 
D                F#m                G               A   
   no se distinguir lo complicado de lo simple 
           D            F#m            G               A   
y ahora estas en Mi    lista de promesas  A   olvidar 
       D             F#m                  G               A   
todo arde Si    le aplicas  La   chispa adecuada 


Dm    -  Am   -  Bb   -  C   

Dm    -  Am   -  Bb   -  F   

Dm    -  Am   -  Bb   -  C   

Dm    -  Am   -  Bb   -  F   

Dm                  Am             Bb   
   El fuego que era A    veces propio 
     C    
La    ceniza siempre ajena 
Dm              Am            Bb   
   Blanca esperma resbalando 
          F    
por La    espina dorsal 
Dm                   Am            Bb   
   ya somos mas viejos y sinceros 
          C    
y que mas da? 
     Dm    
Si    miramos  La   laguna 
     Am                 Bb   
como llama A     La   eternidad 
F    
de La    ausencia 



D                F#m             G            A   
   No se distinguir entre besos y raices 
D                F#m                G               A   
   no se distinguir lo complicado de lo simple 
           D            F#m            G               A   
y ahora estas en Mi    lista de promesas  A   olvidar 
       D             F#m                  G               A   
todo arde Si    le aplicas  La   chispa adecuada 


Dm    -  Am   -  Bb   -  C   

Dm    -  Am   -  Bb   -  F   

Dm    -  Am   -  Bb   -  C   

Dm    -  Am   -  Bb   -  F   


1
Good
-
Bad
1
Votes
1 693
Views
| Good! | Bad!